Cesare Cremonini



Print Friendly Version of this pagePrint Get a PDF version of this webpagePDF


Sample menu:


 

 







 

Gongi boy


INTRO:
 FA LAm7 REm SOLm7      DO7 
e--------------------------5-----------------------------------------
B--------------1-------3-----6--------------------------5-------5----
G------2-----0---0---2---2-7---7-------3-------3------3---3---3---3--
D----3---3---------0-------------7---3---3---3---3-------------------
A----------0----------------------------------------3-------3--------
E--1-------------------------------3-------3-------------------------
 FA REm FA REm DOm   LA# 
e--------------1--------------1----3---------------------0---1---3--
B----------------------------------4-----4-----4-----3--------------
G------2-----2---2----2-----2---2--5---5-----5---5---3-3------------
D----3---3-0--------3---3-0----------5-----5---------3--------------
A----------------------------------3-----------------1-----1---1----
E--1--------------1-------------------------------------------------

FA     LAm7 REm             SOLm7      DO7 
 Gongi boy        verra' il tempo dove noi 
               FA       REm FA REm 
staremo insieme Gongi boy 
DOm                  LA# 
 fidati di mamma lei sa bene quanto voglio bene a 
FA     LAm7 REm             SOLm7       DO7 
 Gongi boy         quanti giochi ancora vuoi? 
                FA       REm FA REm 
ohh ma in cambio Gongi boy 
DOm                   LA# 
 lasciati cullare fino a quando non sarai piu' grande
REm 
 lasciami tornare nei tuoi 
SOL                              LA#       LA#m 
 sogni mentre sei distante    Gongi boy... ....

REm      REm/MI             LA# 
 A milioni di stelle domande farai
            LA                REm 
ma quante risposte che ancora vorrai
          REm/MI          LA# 
lanciando i pianeti per aria dirai
            LA              LA# 
non voglio divieti ne' ora ne' mai
           LA#              FA 
a milioni di donne il tuo nome dirai
             REm              LA#  LA#m 
ma a quante di queste l'amore darai?......

SOL#   DOm7 FAm             LA#m7        RE#7 
 Gongi boy         ogni rosa e' un posto e noi 
               SOL#       FAm SOL# FAm 
dovremo un giorno Gongi boy 
RE#m                   DO# 
 lasciami pensare che mi stai cercando
           DO 
per giocare coi cowboys...coi cowboys...

REm      REm/MI             LA# 
 A milioni di stelle domande farai
            LA                REm 
ma quante risposte che ancora vorrai
          REm/MI         LA# 
lanciando i pianeti li ritroverai
             LA                DOm DOm/LA DOm DOm/LA 
per quanti segreti una bugia mi dirai 
     FA LAm7 REm           SOLm7           DO7 
Gongi boy         manca poco al giorno in cui 
          FA       REm FA REm 
volero' da Gongi boy ... 

Sib  Re#  Fa     x2